Poster des tablatures au format texte

Voir le sujet précédent Voir le sujet suivant Aller en bas

Poster des tablatures au format texte

Message par Seby le Dim 24 Fév - 6:29

La balise "Code" permet d'afficher du texte en gardant la même largeur pour chaque caractère, il est conseillé de l'utiliser afin d'avoir des tabs lisibles.

Voici une tablature vierge qui pourra être utilisée :
Code:
e|----------------------------------------------------------------------------------------------|
B|----------------------------------------------------------------------------------------------|
G|----------------------------------------------------------------------------------------------|
D|----------------------------------------------------------------------------------------------|
A|----------------------------------------------------------------------------------------------|
E|----------------------------------------------------------------------------------------------|

Les notations supplémentaires pourront être renseignées comme ça :
Code:
| ps pick slide
| ^~ vibrato during bend
| *  hold bend
| T  right hand fret tap
| ^  full bend
| \/ tremolo dive
| .  light palm mute with picking hand
| /  slide up
| \  slide down
| h  hammer-on
| p  pull-off
| ~  vibrato
| +  harmonic
| x  Mute note

Et voici un exemple de tablature avec du muting et des pull-off:
Code:
e|-------------------------------------------------------------|
B|---------5---------5---------3-------------------------------|
G|---------6---------4---------2---------2---4p2p0-------------|
D|---------7---------6---------4---------2---------4p2p0-------|
A|-0-0-0-0---0-0-0-0---0-0-0-0---0-0-0-0-0---------------4p2p0-|
E|-------------------------------------------------------------|
  .......  .......  .......  .......

Note: c'est une notation assez basique, qui ne tient pas bien compte des longueurs de notes et des silences, il y a aussi des notations "ASCII" qui en tiennent compte, mais elles deviennent rapidement difficiles à lire.

A vos médiators !
guitare

_________________
J'me sens coupable d'avoir été dans une vie antérieure l'une de ces charmantes petites créatures que l'on rencontre au fond des bouteilles de mescal et d'en ressentir à tout jamais un sentiment mélancolique de paradis perdu.
- Thiefaine
avatar
Seby
Zikotonaute

Messages : 5447
Date d'inscription : 20/02/2013
Age : 41
Localisation : Système solaire

Voir le profil de l'utilisateur https://soundcloud.com/seby_la_mouche

Revenir en haut Aller en bas

Re: Poster des tablatures au format texte

Message par Stratoniko le Mer 27 Fév - 14:43

Merci pour l'info, Seby, tu as raison, une tablature, ça doit rester clair pour être lisible, et non risible ...




ce jeu de mots a la saveur de l'apéro de début de soirée, n'est-il pas ?

_________________
L'homme erra pendant des lustres, puis il la vit, dressée au milieu de nulle-part ... Zikotopia.
Le pénitent.
avatar
Stratoniko
Journeyman

Messages : 3463
Date d'inscription : 21/02/2013
Localisation : Derrière toi.

Voir le profil de l'utilisateur http://stratoniko.blogspot.fr/

Revenir en haut Aller en bas

Voir le sujet précédent Voir le sujet suivant Revenir en haut

- Sujets similaires

 
Permission de ce forum:
Vous ne pouvez pas répondre aux sujets dans ce forum