Mmm Mmm Mmm Mmm - Crash Test Dummies.

Voir le sujet précédent Voir le sujet suivant Aller en bas

Mmm Mmm Mmm Mmm - Crash Test Dummies.

Message par Stratoniko le Mer 27 Fév - 15:13

Mmm Mmm Mmm Mmm - Crash Test Dummies.
Niveau moyen.

Code:
Guitare acoustique

Capodastre en case 3

Intro                       

    Em      Bm          Em      Bm          F        G          F        G       
     
E||--0--------2--------|--0--------2--------|--1--------3--------|--1--------3--------|
B||--0--------3--------|--0--------3--------|--1--------3--------|--1--------3--------|
G||--0--------4--------|--0--------4--------|--2--------0--------|--2--------0--------|
D||--2--------4--------|--2--------4--------|--3--------0--------|--3--------0--------|
A||--2--------2--------|--2--------2--------|--3--------2--------|--3--------2--------|
E||--0-----------------|--0-----------------|--1--------3--------|--1--------3--------|


Couplet

  Am      G          C                  F        C          G        C       
   
|--0--------3--------|--0----------------|--1--------0--------|--3--------0--------|
|--1--------3--------|--1----------------|--1--------1--------|--3--------1--------|
|--2--------0--------|--0----------------|--2--------0--------|--0--------0--------|
|--2--------0--------|--2----------------|--3--------2--------|--0--------2--------|
|--0--------2--------|--3----------------|--3--------3--------|--2--------3--------|
|-----------3--------|-------------------|--1-----------------|--3-----------------|


  F                  G        C          G        C          F        C       
       
|--1----------------|--3--------0--------|--3--------0--------|--1--------0--------|
|--1----------------|--3--------1--------|--3--------1--------|--1--------1--------|
|--2----------------|--0--------0--------|--0--------0--------|--2--------0--------|
|--3----------------|--0--------2--------|--0--------2--------|--3--------2--------|
|--3----------------|--2--------3--------|--2--------3--------|--3--------3--------|
|--1----------------|--3-----------------|--3-----------------|--1-----------------|


  G                  G        G#          C        G#          Fsus2maj7#11     
           
|--3----------------|--3--------4--------|--0--------4--------|--0----------------|
|--3----------------|--3--------4--------|--1--------4--------|--0----------------|
|--0----------------|--0--------5--------|--0--------5--------|--0----------------|
|--0----------------|--0--------6--------|--2--------6--------|--3----------------|
|--2----------------|--2--------6--------|--3--------6--------|--3----------------|
|--3----------------|--3--------4--------|-----------4--------|--1----------------|

                    Refrain                 

  F                  Em      Bm          Em      Bm          F        G       
       
|--1----------------||--0--------2--------|--0--------2--------|--1--------3--------|
|--1----------------||--0--------3--------|--0--------3--------|--1--------3--------|
|--2----------------||--0--------4--------|--0--------4--------|--2--------0--------|
|--3----------------||--2--------4--------|--2--------4--------|--3--------0--------|
|--3----------------||--2--------2--------|--2--------2--------|--3--------2--------|
|--1----------------||--0-----------------|--0-----------------|--1--------3--------|


                      Pont

  F        G          Dm                  C        G          Dm               
             
|--1--------3--------||--1----------------|--0--------3--------|--1----------------|
|--1--------3--------||--3----------------|--1--------3--------|--3----------------|
|--2--------0--------||--2----------------|--0--------0--------|--2----------------|
|--3--------0--------||--0----------------|--2--------0--------|--0----------------|
|--3--------2--------||-------------------|--3--------2--------|-------------------|
|--1--------3--------||-------------------|-----------3--------|-------------------|


  C        G          F                  C                 
             
|--0--------3--------|--1----------------|--0----------------||
|--1--------3--------|--1----------------|--1----------------||
|--0--------0--------|--2----------------|--0----------------||
|--2--------0--------|--3----------------|--2----------------||
|--3--------2--------|--3----------------|--3----------------||
|-----------3--------|--1----------------|-------------------||

guitare

_________________
L'homme erra pendant des lustres, puis il la vit, dressée au milieu de nulle-part ... Zikotopia.
Le pénitent.
avatar
Stratoniko
Journeyman

Messages : 3463
Date d'inscription : 21/02/2013
Localisation : Derrière toi.

Voir le profil de l'utilisateur http://stratoniko.blogspot.fr/

Revenir en haut Aller en bas

Voir le sujet précédent Voir le sujet suivant Revenir en haut

- Sujets similaires

 
Permission de ce forum:
Vous ne pouvez pas répondre aux sujets dans ce forum