A whiter shade of pale - Procol Harum.

Voir le sujet précédent Voir le sujet suivant Aller en bas

A whiter shade of pale - Procol Harum.

Message par Stratoniko le Mar 5 Mar - 8:41

Code:


    C          C/B            Am          G              F          F/E         

||--0-----0-----0------0-----|--0-----0-----3-----3-----|--1-----1-----1------1-----|
||--1-----1-----1------1-----|--1-----1-----3-----3-----|--1-----1-----1------1-----|
||°-0-----0-----0------0-----|--2-----2-----0-----0-----|--2-----2-----2------2-----|
||--2-----2-----0------0-----|--2-----2-----0-----0-----|--3-----3-----3------3-----|
||°-3--3--3--3--2---2--2--2--|--0--0--0--0--2-----2-----|--3-----3------------------|
||---------------------------|--------------3--3--3--3--|--1--1--1--1--0---0--0--0--|
||
||
||---------------------------|--------------------------|--5------------------7--8--|
||---------------------------|--------------------5-----|---------------------------|
||°-9------------------------|-----7--5--4--5--7-----5--|---------------------------|
||---------------------------|--------------------------|---------------------------|
||°--------------------------|--------------------------|---------------------------|
||---------------------------|--------------------------|---------------------------|


  Dm7          Dm7/C            G          G/F            Em          F           
 
|--1------1-----1--------1-----|--3-----3-----3------3-----|--0-----0-----1-----1-----|
|--1------1-----1--------1-----|--3-----3-----3------3-----|--0-----0-----1-----1-----|
|--2------2-----2--------2-----|--0-----0-----0------0-----|--0-----0-----2-----2-----|
|--0---0--0--0-----------------|--0-----0-----0------0-----|--2-----2-----3-----3-----|
|---------------3-----3--3--3--|--2-----2------------------|--2-----2-----3-----3-----|
|------------------------------|--3--3--3--3--1---1--1--1--|--0--0--0--0--1--1--1--1--|
|
|
|------------------------------|--7-----------------8--10--|--------------------------|
|--6-5-6-----------------------|---------------------------|--8-6-8----------6--5--6--|
|-------------------------7----|---------------------------|--------------------------|
|------------------------------|---------------------------|--------------------------|
|------------------------------|---------------------------|--------------------------|
|------------------------------|---------------------------|--------------------------|


  C          F              G                G/B     
 
|--0-----0-----1-----1-----|--3-----3-----3-----3------||
|--1-----1-----1-----1-----|--3-----3-----3-----3------||
|--0-----0-----2-----2-----|--0-----0-----0-----0-----°||
|--2-----2-----3-----3-----|--0-----0-----0-----0------||
|--3--3--3--3--3-----3-----|--2-----2-----2-----2---2-°||
|--------------1--1--1--1--|--3--3--3--3--3--3---------||
|                                                      ||
|                                                      ||
|                                                      ||
|--------------------------|---------------------------||
|--6--5--------10----------|--8--------3-6----5----3---||
|--------7--5--------------|---------5----------------°||
|--------------------------|---------------------------||
|--------------------------|--------------------------°||
|--------------------------|---------------------------||

_________________
L'homme erra pendant des lustres, puis il la vit, dressée au milieu de nulle-part ... Zikotopia.
Le pénitent.
avatar
Stratoniko
Journeyman

Messages : 3463
Date d'inscription : 21/02/2013
Localisation : Derrière toi.

Voir le profil de l'utilisateur http://stratoniko.blogspot.fr/

Revenir en haut Aller en bas

Re: A whiter shade of pale - Procol Harum.

Message par Stratoniko le Mar 5 Mar - 8:48

Voici le lien qui vous mènera à un backing track (piste sans la guitare), que vous pouvez télécharger gratuitement : ICI

_________________
L'homme erra pendant des lustres, puis il la vit, dressée au milieu de nulle-part ... Zikotopia.
Le pénitent.
avatar
Stratoniko
Journeyman

Messages : 3463
Date d'inscription : 21/02/2013
Localisation : Derrière toi.

Voir le profil de l'utilisateur http://stratoniko.blogspot.fr/

Revenir en haut Aller en bas

Voir le sujet précédent Voir le sujet suivant Revenir en haut

- Sujets similaires

 
Permission de ce forum:
Vous ne pouvez pas répondre aux sujets dans ce forum