Proud Mary - Creedence Clearwater Revival.

Voir le sujet précédent Voir le sujet suivant Aller en bas

Proud Mary - Creedence Clearwater Revival.

Message par Stratoniko le Jeu 21 Mar - 8:06


Standard Tunning

C: x32010
A: x02220
G: 320003
F: xx3211
D: xx0232
Bm:x24432

Intro:
C A C A C A G F D
E||--0-0--0-0-0--|--0-0--0-0-0--|--0-0--0--1--1--|--1-1-1-1--2--|
B||--1-1--2-2-2--|--1-1--2-2-2--|--1-1--2--0--1--|--1-1-1-1--3--|
G||--0-0--2-2-2--|--0-0--2-2-2--|--0-0--2--0--2--|--2-2-2-2--2--|
D||--2-2--2-2-2--|--2-2--2-2-2--|--2-2--2--0--3--|--3-3-3-3--0--|
A||--3-3--0-0-0--|--3-3--0-0-0--|--3-3--0--2-----|--------------|
E||--------------|--------------|----------3-----|--------------|

Verse 1:

D
Left a good job in the city,

D
Working for The Man every night and day,

D
And I never lost one minute of sleeping,

D
Worrying 'bout the way things might have been.

A
Big wheel keep on turning,

Bm
Proud Mary keep on burning,

E|--------------------|
B|--------------------|
G|-----------/42-----|
D|-----0--2--/42--0--|
A|--2-----------------|
E|--------------------|

CHORUS:

D
Rolling, rolling, rolling on the river.

E|------|-----------------|
B|--/7--|--7--5--3--5--3--|
G|------|-----------------|
D|--/7--|--7--5--4--5--4--|
A|------|-----------------|
E|------|-----------------|

Verse 2:

D
Cleaned a lot of plates in Memphis,

D
Pumped a lot of pain down in New Orleans,

D
But I never saw the good side of the city,

D
Until I hitched a ride on a river boat queen.

A
Big wheel keep on turning,

Bm
Proud Mary keep on burning,

E|----------------------|
B|-------3--5--/75--3--|
G|--2/4-----------------|
D|-------------/75--4--|
A|----------------------|
E|----------------------|

CHORUS:

D
Rolling, rolling, rolling on the river.

E|------|-----------------|
B|--/7--|--7--5--3--5--3--|
G|------|-----------------|
D|--/7--|--7--5--4--5--4--|
A|------|-----------------|
E|------|-----------------|

Repeat the intro
C A C A C A G F D
E|--0-0--0-0-0--|--0-0--0-0-0--|--0-0--0--1--1--|--1-1-1-1--2--|
B|--1-1--2-2-2--|--1-1--2-2-2--|--1-1--2--0--1--|--1-1-1-1--3--|
G|--0-0--2-2-2--|--0-0--2-2-2--|--0-0--2--0--2--|--2-2-2-2--2--|
D|--2-2--2-2-2--|--2-2--2-2-2--|--2-2--2--0--3--|--3-3-3-3--0--|
A|--3-3--0-0-0--|--3-3--0-0-0--|--3-3--0--2-----|--------------|
E|--------------|--------------|----------3-----|--------------|

Solo:
D
E|-------------------|-----------------|------------------|-----------------------|
B|---------7--7-8-7--|--7-8-7-8-7-8-7--|--8-7-8-7--7---7--|--8/10-10-10-8--7------|
G|---------7--7-7-7--|--7-7-7-7-7-7-7--|--7-7-7-7--7-7-7--|--9/11-11-11-9--7------|
D|-----7-9-7--7-9-7--|--7-9-7-9-7-9-7--|--9-7-9-7--7-9-7--|------------------9-7--|
A|--/9---------------|-----------------|------------------|-----------------------|
E|-------------------|-----------------|------------------|-----------------------|

D
E|-------------------|-----------------|-----------------|---------|
B|---------7--7-8-7--|--7-8-7---7-8-7--|--7---7----------|---------|
G|---------7--7-7-7--|--7-7-7---7-7-7--|--7---7---7---7--|---------|
D|-----7-9-7--7-9-7--|--7-9-7---7-9-7--|----------7---7--|--7---7--|
A|--/9---------------|-----------------|-----------------|--9---9--|
E|-------------------|-----------------|-----------------|---------|

A Bm
E|-----------------------|----------------|--------------------0--|---------------|
B|----------0-2-2-2-2-3--|--2-2-2-2-0--2--|--0-0-0-0-2-3-3-3-3----|--3-3-3-3-2-3--|
G|--2-2-2-2--------------|----------------|-----------------------|---------------|
D|-----------------------|----------------|-----------------------|---------------|
A|-----------------------|----------------|-----------------------|---------------|
E|-----------------------|----------------|-----------------------|---------------|

D
Rolling, rolling, rolling on the river.

E|------|-----------------|
B|--/7--|--7--5--3--5--3--|
G|------|-----------------|
D|--/7--|--7--5--4--5--4--|
A|------|-----------------|
E|------|-----------------|

Repeat the intro
C A C A C A G F D
E|--0-0--0-0-0--|--0-0--0-0-0--|--0-0--0--1--1--|--1-1-1-1--2--|
B|--1-1--2-2-2--|--1-1--2-2-2--|--1-1--2--0--1--|--1-1-1-1--3--|
G|--0-0--2-2-2--|--0-0--2-2-2--|--0-0--2--0--2--|--2-2-2-2--2--|
D|--2-2--2-2-2--|--2-2--2-2-2--|--2-2--2--0--3--|--3-3-3-3--0--|
A|--3-3--0-0-0--|--3-3--0-0-0--|--3-3--0--2-----|--------------|
E|--------------|--------------|----------3-----|--------------|

D
If you come down to the river,

D
Bet you gonna find some people who live.

D
You don't have to worry 'cause you have no money,

D
People on the river are happy to give.

A
Big wheel keep on turning,

Bm
Proud Mary keep on burning,

E|----------------------|
B|-------3--5--/75--3--|
G|--2/4-----------------|
D|-------------/75--4--|
A|----------------------|
E|----------------------|

CHORUS

D
Rolling, rolling, rolling on the river.

E|------|-----------------|
B|--/7--|--7--5--3--5--3--| FIVE
G|------|-----------------| TIMES
D|--/7--|--7--5--4--5--4--|
A|------|-----------------|
E|------|-----------------|



_________________
L'homme erra pendant des lustres, puis il la vit, dressée au milieu de nulle-part ... Zikotopia.
Le pénitent.
avatar
Stratoniko
Journeyman

Messages : 3463
Date d'inscription : 21/02/2013
Localisation : Derrière toi.

Voir le profil de l'utilisateur http://stratoniko.blogspot.fr/

Revenir en haut Aller en bas

Voir le sujet précédent Voir le sujet suivant Revenir en haut

- Sujets similaires

 
Permission de ce forum:
Vous ne pouvez pas répondre aux sujets dans ce forum