One life, one soul - Gotthard.

Voir le sujet précédent Voir le sujet suivant Aller en bas

One life, one soul - Gotthard.

Message par Stratoniko le Lun 25 Mar - 15:22


Intro:

e---------0--------------0------|------0--------------------|
B---------1p0------------0------|------1----1------1p0------|
G-------2-----2-----------------|----2------2----2-------2--|
D-----2---------2-----2---------|--------------2------------|
A-0-----------------------------|-----------0----------0----|
E-----------------3---------3---|-1------3------------------|


e---------0--------------0------|---------0-----------------|
B---------1p0------------0------|-1--3----1--------1p0------|
G-------2-----2-----------------|-2--4-------------------2--|
D-----2---------2---------------|---------------------------|
A-0-------------------0---------|---------0----0-------0----|
E-----------------3---------3---|-1--3----------------------|


Verse

[Capo]
e---------0--------------0------|------0--------------------|
B---------1p0------------0------|------1----1------1p0------|
G-------2-----2-----------------|----2------2----2-----2----|
D-----2---------2---------------|--------------2------------|
A-0-------------------0---------|------------0--------------|
E-----------------3---------3---|-1------3------------------|

I've been waiting all my life



e---------0--------------0------|---------0-----------------|
B---------1p0------------0------|-1--3----1--------1p0------|
G-------2-----2-----------------|-2--4----------------------|
D-----2---------2---------------|---------------------------|
A-0-------------------0---------|---------0----0-------0-2--|
E-----------------3---------3---|-1--3----------------------|

For the sun to make it mine.



e-1-------1-------1-------------|-1--------------1----------|
B-3-------3-------3------3------|-3-------3------3-----3----|
G-2---2-------2---2------2------|-0-------0------0-----0----|
D-0-------------------0------0--|-----0-------------0-------|
A-----------------3-------------|---------------------------|
E-------------------------------|-3----------3---3--------3-|

Cal - lin' Cal - lin' Whispering your name 'n' right


e-0--------------0--------------|-0------3------0------3----|
B-1------1-------1-------1------|-1------1------1------1----|
G-0------0-------0-------0------|-0-------------------------|
D-----0------0-------2----------|-----2-----2------2--------|
A-3--------------2-----------2--|-0-------------0---------0-|
E-------------------------------|---------------------------|

now you're on my trail.


e---------1---------------------|-1--------------1----------|
B-3-------3-------3------3------|-3-------3------3-----3----|
G-2---2-------2---2------2------|-0-------0------0-----0----|
D-0-------------------0------0--|-----0-------------0-------|
A-----------------3-------------|---------------------------|
E-------------------------------|-3----------3---3--------3-|

Fal - lin' Fal - lin' Whishing you near but some-


e-0--------------0--------------|-0------0------0------3----|
B-1------1-------1-------1------|-1------1------1------1----|
G-0------0-------0-------0------|-0-------------------------|
D-----0------0-------2----------|-----2-----2------2--------|
A-3--------------2-----------2--|-0-------------0---------0-|
E-------------------------------|---------------------------|

how you slipped away like ice in the


e---------1--------------1------|-3-------3-------3---------|
B-3-------3-------3------3------|-0-------0-0h1---0-----0h1-|
G-2-----------2---2----------2--|-0-------------0-----------|
D-0---0-------------------------|---------------------------|
A-----------------3---3---------|--------------------2------|
E-------------------------------|-3---3-----------3---------|

sun already gone. One


e-0-------------0---------------|-0-----3-------0------3----|
B-1------1------1-------1-------|-1-----1-------1------1----|
G-----------0---------------0---|-----------0-------------0-|
D-----2-------------2-----------|----2--------------2-------|
A-3-------------2---------------|-0-------------0-----------|
E-------------------------------|---------------------------|

life one soul For - ever I know.


e-3------------1----------------|-0-------------------------|
B-0-----0------1--------1-------|-1-----1-----3-------------|
G-----------0-----------2-------|-------2-----4-----4-------|
D---------------------------3---|----2-----2-----------5----|
A----2-------------3------------|-0--------------5----------|
E-3------------1----------------|-------------3-------------|

Follow me, follow me wherever I go.




e-0-------------0---------------|-0-----3-------0------3----|
B-1------1------1-------1-------|-1-----1-------1------1----|
G-----------0---------------0---|-----------0-------------0-|
D-----2-------------2-----------|----2--------------2-------|
A-3-------------2---------------|-0-------------0-----------|
E-------------------------------|---------------------------|

One life, one soul just waiting to flow.


e-3------------1----------------|-0------------|
B-0-----0------1--------1-------|-0------0-----|
G-----------0-----------2-------|--------1-----|
D---------------------------3---|------------2-|
A----2-------------3------------|-----2--------|
E-3------------1----------------|-0------------|

Follow me, follow me Don't let me


e---------0--------------0------|------0--------------------|
B---------1p0------------0------|------1----1------1p0------|
G-------2-----2-----------------|----2------2----2-------2--|
D-----2---------2-----2---------|--------------2------------|
A-0-----------------------------|------------0---------0----|
E-----------------3---------3---|-1------3------------------|

go.

e---------0--------------0------|---------0-----------------|
B---------1p0------------0------|-1--3----1--------1p0------|
G-------2-----2-----------------|-2--4-------------------2--|
D-----2---------2---------------|---------------------------|
A-0-------------------0---------|---------0----0-------0----|
E-----------------3---------3---|-1--3----------------------|
[da Capo]


Lyrics:

Verse 1:
--------

I've been waiting, all my life.
For the sun to make it mine.
Callin' callin', whispering your name
'n' right now
you're on my trail.
Falling, falling, wishing you near
but somehow
you slipped away
like ice in the sun,
already gone.


Chorus:
-------

One life, one soul,
forever I know.
Follow me, follow me,
wherever I go.
One life, one soul,
just waiting to flow.
Follow me, follow me,
don't let me go.


Verse 2
-------

I've been dreaming for too long.
Chasing rainbows, on my own.
Screamin' screamin', your are the wind
in my sail
in an ocean so wide.
Over good times, bad times I'll be your own
guiding light,
holding your hand.
Eyes open wide
'n' always beside.



_________________
L'homme erra pendant des lustres, puis il la vit, dressée au milieu de nulle-part ... Zikotopia.
Le pénitent.
avatar
Stratoniko
Journeyman

Messages : 3463
Date d'inscription : 21/02/2013
Localisation : Derrière toi.

Voir le profil de l'utilisateur http://stratoniko.blogspot.fr/

Revenir en haut Aller en bas

Re: One life, one soul - Gotthard.

Message par nell le Sam 30 Mar - 13:02

Merci Niko. Ca m'a l'air pas trop compliqué. Very Happy
avatar
nell
Novice à l'Ecole de Musique

Messages : 835
Date d'inscription : 08/03/2013
Age : 41
Localisation : Zikotopia

Voir le profil de l'utilisateur

Revenir en haut Aller en bas

Voir le sujet précédent Voir le sujet suivant Revenir en haut

- Sujets similaires

 
Permission de ce forum:
Vous ne pouvez pas répondre aux sujets dans ce forum