[Novices - Tuto 1] Finger Picking - Initiation aux arpèges

Voir le sujet précédent Voir le sujet suivant Aller en bas

[Novices - Tuto 1] Finger Picking - Initiation aux arpèges

Message par Seby le Sam 1 Juin - 6:02

Voici mon premier tutorat, dans lequel nous verrons les bases du jeu aux doigts sur guitare (acoustique ou non) et un peu de théorie, et qui sera constitué de quelques exercices et morceaux.
________________
Théorie

Un rappel, je pense, pour que nous partons sur les mêmes bases: les notes.
Vous connaissez tous l'échelle diatonique: Do - Ré - Mi - Fa - Sol - La - Si (- Do).
Ce sont les touches blanches du piano.
En notation anglo-saxonne, les notes sont représentées par des lettres. La = A, la gamme ci-dessus devient C - D - E - F - G - A - B.
Attention à la notation germanique (j'ai de temps en temps des songbooks allemands entre les mains), le B n'est pas le Si, mais le Si bémol (donc la note entre La et Si), le Si est représenté par le H là-bas.

L'intervalle entre deux notes de cette gamme est d'un ton, sauf pour l'écart entre Mi et Fa, et celui entre Si et Do, qui est d'un demi-ton (moyen mnémotechnique: les notes en i ont un intervalle d'un demi-ton seulement avec leur suivante).
L'intervalle entre une note et cette même note plus haut (fréquence doublée), c'est l'octave.
Donc, un octave, ça équivaut à 5 tons + 2 1/2 tons = 6 tons.

Chaque case de la guitare équivaut à un demi-ton, donc 12 cases = 12 demi-tons = 6 tons = 1 octave.
Par conséquent, dans les 12 premières cases, on peut retrouver toutes les notes sur chaque corde.
Un bon exercice est de rechercher une note sur tout le manche (jusqu'à la 12ème frette).
Par exemple, si on recherche Le C, sur la corde de E, on calcule l'intervalle, E-F-G-A-B-C = 0.5 + 1 + 1 + 1 + 0.5 = 4 tons = 8 cases, on retrouve donc le C à la 8ème frette de la corde de E, etc...
C'est clair pour tout le monde ? Vous connaissez déjà tout ça ?


Bon... Fini avec les maths, maintenant on joue !
________________
Jeu au doigts et arpèges

L'arpège, c'est quand on joue une à une les notes d'un accord. C'est une technique particulièrement utilisée dans la guitare classique (nous verrons un exemple) et les ballades (Hotel California, Stairway To Heaven, ...).

Les arpèges peuvent aussi bien être joués aux doigts qu'au médiator, mais aujourd'hui, on se concentrera sur le jeu aux doigts.

Pour ces exercices, on utilisera le pouce, l'index, le majeur et l’annulaire de la main droite (pour les droitiers).
On garde toujours l'index, le majeur et l’annulaire respectivement sur les cordes Sol, Si et Mi aigu, le pouce se charge de jouer les trois cordes les plus basses.

Pour les exercices, nous jouerons l'accord de Em - ce qui nous permettra de ne pas utiliser la main gauche et de se concentrer sur la droite. Le pouce jouera uniquement la basse sur la corde de Mi.
__________
L'arpège en aller-retour sur Em, vous le connaissez tous, c'est le début de l'intro de Nothing Else Matters.

   p  i  m  a  m  i ...
|-----------0----------|-----------0----------|
|--------0-----0-------|--------0-----0-------|
|-----0-----------0----|-----0-----------0----|
|----------------------|----------------------|
|----------------------|----------------------|
|--0-------------------|--0-------------------|



Sur la vidéo, j'utilise un métronome, et je vous conseille d'y avoir systématiquement recours sur les exercices.
Si vous n'en avez pas, il y en a en ligne. Pour l'exercice, j'utilise celui-ci: http://www.metronome-en-ligne.com/simple/
Il y a aussi les boites à rythme, qui sont un peu plus "sexy", par exemple ici: http://www.rinki.net/pekka/monkey/m.php

Voici d'autres formes d'arpèges qui sont assez courantes et sur lesquels vous vous entrainerez:
__________
L'arpège ascendant

|-----------0-----------0----|-----------0-----------0----|
|--------0-----------0-------|--------0-----------0-------|
|-----0-----------0----------|-----0-----------0----------|
|----------------------------|----------------------------|
|----------------------------|----------------------------|
|--0-----------0-------------|--0-----------0-------------|
__________
L'arpège descendant

|-----0-----------0----------|-----0-----------0----------|
|--------0-----------0-------|--------0-----------0-------|
|-----------0-----------0----|-----------0-----------0----|
|----------------------------|----------------------------|
|----------------------------|----------------------------|
|--0-----------0-------------|--0-----------0-------------|
__________
Un arpège avec deux notes jouées simultanément sur les aiguës

|--------0-----------0-------|--------0-----------0-------|
|--------0-----------0-------|--------0-----------0-------|
|-----0-----0-----0-----0----|-----0-----0-----0-----0----|
|----------------------------|----------------------------|
|----------------------------|----------------------------|
|--0-----------0-------------|--0-----------0-------------|
__________
Un arpège alterné

|-----------0-----------0----|-----------0-----------0----|
|-----0-----------0----------|-----0-----------0----------|
|--------0-----------0-------|--------0-----------0-------|
|----------------------------|----------------------------|
|----------------------------|----------------------------|
|--0-----------0-------------|--0-----------0-------------|



Pas de difficulté particulière dans ces exercices, il s'agit de s'initier au jeu aux doigts et au placement de la main droite pour ceux qui n'en sont pas familiers, et d'un rappel pour les autres.
__________
Maintenant nous allons voir deux morceaux en arpège.

________________
If de Pink Floyd
Une ballade assez lente, qui utilise une variante de l'arpège en aller-retour.
On respectera scrupuleusement le placement des doigts. Donc, par exemple, sur le B7, on jouera p-p-m-i-m-p-p-p.

Source: http://tabs.ultimate-guitar.com/p/pink_floyd/if_tab.htm
E                               B7
------0---------------0-----------------------------|
----0---0-----------0---0-------------0-------------|
--1-------1---1---1-------1---1-----2---2-----------|
2-----------2---2-----------2-----1-------1---1---1-|
--------------------------------2-----------2---2---|
----------------------------------------------------|
            E                               D
------------------0---------------0---------------2-|
--0-------------0---0-----------0---0-----------3---|
2---2---------1-------1---1---1-------1---1---2-----|
------1---1-2-----------2---2-----------2---0-------|
--------2-------------------------------------------|
----------------------------------------------------|

                        E
--------------2---------------0---------------0-----|
3-----------3---3-----------0---0-----------0---0---|
--2---2---2-------2---2---1-------1---1---1-------1-|
----0---0-----------0---2-----------2---2-----------|
----------------------------------------------------|
----------------------------------------------------|

                                    E
----------2---------------2---------------0---------|
--------3---3-----------3---3-----------0---0-------|
--1---2-------2---2---2-------2---2---1-------1---1-|
2---0-----------0---0-----------0---2-----------2---|
----------------------------------------------------|
----------------------------------------------------|

C#7              F#              B7
----------------------------------------------------|
------2----------------2---------------0------------|
----4---4------------3---3-----------2---2----------|
--3-------3---3----4-------4---4---1-------1---1----|
4-----------4--------------------2-----------2------|
-----------------2-----------2----------------------|



Les difficultés:
- le C#7 est peut-être nouveau pour vous, mais c'est juste un C7 décalé d'une case,
- le F# pour ceux qui ont du mal avec les barrés.
A noter: Sur la vidéo, je joue trois fois l'accord de Mi au début, comme dans la version live. Dans la version studio, il n'est joué que deux fois.
Vidéo (version live 1970) : http://www.youtube.com/watch?v=li_hBPQ1A1g

________________
Etude en mi mineur de Tarrega
Un arpège descendant en triolets, avec une basse qui marque chaque mesure.
A bosser lentement, en recherchant les positions de la main gauche les plus adéquates.

--0--------3--------3----------|--3--------2--------2----------|
-----0--------0--------0-------|-----1--------1--------1-------|
--------0--------0--------0----|--------2--------2--------2----|
-------------------------------|-------------------------------|
-------------------------------|--0----------------------------|
--0----------------------------|-------------------------------|

--5--------3--------2----------|--7--------7--------7----------|
-----4--------4--------4-------|-----0--------0--------0-------|
--------2--------2--------2----|--------0--------0--------0----|
-------------------------------|-------------------------------|
--2----------------------------|-------------------------------|
-------------------------------|--0----------------------------|

--0--------3--------3----------|--3--------2--------2----------|
-----0--------0--------0-------|-----1--------1--------1-------|
--------0--------0--------0----|--------2--------2--------2----|
-------------------------------|-------------------------------|
-------------------------------|--0----------------------------|
--0----------------------------|-------------------------------|

--0--------3--------3----------|--3--------2--------2----------|
-----0--------0--------0-------|-----1--------1--------1-------|
--------0--------0--------0----|--------2--------2--------2----|
-------------------------------|-------------------------------|
-------------------------------|--0----------------------------|
--0----------------------------|-------------------------------|

--5--------3--------2----------|--0--0-------|
-----4--------4--------4-------|-----0-------|
--------2--------2--------2----|-----0-------|     X 2
-------------------------------|-------------|
--2----------------------------|-------------|
-------------------------------|--0----------|

--0--------3--------7----------|--7--------5--------8----------|
-----0--------0--------0-------|-----5--------5--------5-------|
--------0--------0--------0----|--------5--------5--------5----|
-------------------------------|-------------------------------|
-------------------------------|--0----------------------------|
--0----------------------------|-------------------------------|


--2--------3--------5----------|--5--------3--------7----------|
-----1--------1--------3-------|-----0--------0--------0-------|
--------2--------2--------5----|--------0--------0--------0----|
--0----------------------------|-------------------------------|
-------------------------------|-------------------------------|
-------------------------------|--3----------------------------|


--0--------3--------3----------|--3--------2--------2----------|
-----0--------0--------0-------|-----1--------1--------1-------|
--------0--------0--------0----|--------2--------2--------2----|
-------------------------------|-------------------------------|
-------------------------------|--0----------------------------|
--0----------------------------|-------------------------------|


--0--------3--------3----------|--3--------2--------2----------|
-----0--------0--------0-------|-----1--------1--------1-------|
--------0--------0--------0----|--------2--------2--------2----|
-------------------------------|-------------------------------|
-------------------------------|--0----------------------------|
--0----------------------------|-------------------------------|


--5--------3--------2----------|--0--------0-------------------|
-----4--------4--------4-------|-----0-----0-------------------|
--------2--------2--------2----|--------0--0-------------------|
-------------------------------|-------------------------------|
--2----------------------------|-------------------------------|
-------------------------------|--0--------0-------------------|



Les difficultés:
- quelques barrés en deuxième case,
- l'auriculaire (de la main gauche) est pas mal sollicité.
A noter: ce qui est bien avec le classique, c'est la liberté laissée à l’interprète de mettre de l'emphase en modulant le tempo, donc n'hésitez pas quand le morceau sera maîtrisé ! La version que je joue (de mémoire) est plus courte que la "vraie" composition. Il joue deux fois la première partie, et parfois le Em est joué en harmoniques.
Une interprétation (assez lente): http://www.youtube.com/watch?v=VvyP6yaHmHo
________________
Ici se termine ce premier tuto.
J'attends donc un retour sur la facilité ou difficulté des exercices, la clarté de mes explications ou de leur présentation, s'il y a des passages de certains exercices que vous ne comprenez pas, si vous vous attendiez à quelque chose de différent, voire des éventuelles erreurs que j'aurais commises (je ne suis pas un musicien, je me répète, j'ai pu faire des erreurs, et je ne me suis pas beaucoup relu), etc...

Alors, ce qui serait vraiment bien, c'est que je puisse vous voir jouer, ou au moins vous entendre pour ceux qui n'ont pas de caméscope, sur les exercices que je propose, mais aussi sur ce que vous voulez, histoire de se faire une idée sur les acquis et les points à travailler, etc...
Le son des vidéos est pas terrible, surtout celles dans lesquelles je figure "en entier" puisque la gratte est plus éloignée du micro, j'espère que c'est suffisant comme ça.

Bon weekend à vous et bonne gratte ! guitare (ici, ça souffle !)


Dernière édition par Seby le Mer 5 Juin - 10:07, édité 2 fois

_________________
J'me sens coupable d'avoir été dans une vie antérieure l'une de ces charmantes petites créatures que l'on rencontre au fond des bouteilles de mescal et d'en ressentir à tout jamais un sentiment mélancolique de paradis perdu.
- Thiefaine
avatar
Seby
Zikotonaute

Messages : 5447
Date d'inscription : 20/02/2013
Age : 41
Localisation : Système solaire

Voir le profil de l'utilisateur https://soundcloud.com/seby_la_mouche

Revenir en haut Aller en bas

Re: [Novices - Tuto 1] Finger Picking - Initiation aux arpèges

Message par cedric05 le Sam 1 Juin - 7:55

Diable, si ce n’était gratuit on pourrait dire qu'on en a pour notre argent Smile
Une chose est sûre c'est que j'ai du boulot pour la semaine, ne serait ce déjà que pour apprendre le manche (chose que j'avais commencé a faire)
Les vidéos sont de bonnes qualité et on entend bien, d'ailleurs je vais voir ce que je peux faire pour m'enregistrer, vu que j'ai ni micro, ni caméscope, juste une webcam Rolling Eyes
Tes explications sont très claires et les exercices accessibles.
Le métronome, j'essaye de l'utiliser pour les rythmiques, mais je n'avais jamais essayé pour les arpèges, du coup j'aurais deux questions.
1) Tu pinces la corde de Mi (E) sur le premier coup du métronome, c'est bien ça ?
2) Quel tempo tu utilises, pour chaque arpège ?

Sinon hormis les barrés qui me donnent habituellement un peu de fil à retordre, les morceaux ont l'air simple (en plus je connaissais pas ce morceau de pink floyd).
En tout cas merci d'avoir pris le temps de faire le tuto, moi je vais m'y atteler et voir ce que je peux faire pour un feed back audio/vidéo (si ce n'est pas pour cette leçon, ce sera pour la prochaine).
Bonne gratte a toi aussi et bon week end


cedric05
Novice à l'Ecole de Musique

Messages : 154
Date d'inscription : 04/03/2013

Voir le profil de l'utilisateur

Revenir en haut Aller en bas

Re: [Novices - Tuto 1] Finger Picking - Initiation aux arpèges

Message par Invité le Sam 1 Juin - 8:46

Super sympa comme tuto !!
Bon je connaissais déjà un peu mais je vais revoir quelques bases ça fait pas de mal... Surtout sur mon acoustique.

Invité
Invité


Revenir en haut Aller en bas

Re: [Novices - Tuto 1] Finger Picking - Initiation aux arpèges

Message par Seby le Sam 1 Juin - 13:40

Mrci à vous !
cedric05 a écrit:Le métronome, j'essaye de l'utiliser pour les rythmiques, mais je n'avais jamais essayé pour les arpèges, du coup j'aurais deux questions.
1) Tu pinces la corde de Mi (E) sur le premier coup du métronome, c'est bien ça ?
2) Quel tempo tu utilises, pour chaque arpège ?
Le métronome, c'est très bien de l'utiliser pour les rythmiques, oui, et aussi pour les gammes, en augmentant progressivement la vitesse.
Ici, sur les arpèges, c'est surtout pour les jouer avec une certaine régularité.
L'exercice en triolets, c'est un tempo à 60bpm, et chaque "mi" (grave comme aiguë) est en effet joué sur un "bip".
Les autres exercices (en croches), c'est un tempo à 80bpm, ça fait "bip bop", le mi est joué sur le "bip" et la "troisième note" (en fonction de l'exercice) est joué sur le "bop".
cedric05 a écrit:(en plus je connaissais pas ce morceau de pink floyd).
Il est issu de l'excellent Atom Heart Mother (1970).

Sinon, c'est pas génial ces tutos dispersés dans le topic, faudrait trouver une meilleure présentation, on va y réfléchir !

_________________
J'me sens coupable d'avoir été dans une vie antérieure l'une de ces charmantes petites créatures que l'on rencontre au fond des bouteilles de mescal et d'en ressentir à tout jamais un sentiment mélancolique de paradis perdu.
- Thiefaine
avatar
Seby
Zikotonaute

Messages : 5447
Date d'inscription : 20/02/2013
Age : 41
Localisation : Système solaire

Voir le profil de l'utilisateur https://soundcloud.com/seby_la_mouche

Revenir en haut Aller en bas

Tuto 1 - Initiation aux arpèges

Message par cedric05 le Sam 1 Juin - 14:06

Ok, c'est plus clair comme ça
Merci victoire

cedric05
Novice à l'Ecole de Musique

Messages : 154
Date d'inscription : 04/03/2013

Voir le profil de l'utilisateur

Revenir en haut Aller en bas

Re: [Novices - Tuto 1] Finger Picking - Initiation aux arpèges

Message par Seby le Ven 14 Juin - 5:13

cedric05 a écrit:Salut Seby, petit compte rendu.
Je suis toujours en train d'apprendre le manche et l’arpège de Pink Floyd ne pose presque plus de problème si ce n'est ce pas content de barré qui ne veut pas toujours sonner.
J'ai essayé de m'enregistrer avec la web cam, mais :
1)Je n'ai pas de son
2)L'image est moisie
Bref je continue a bosser tranquilou

Dommage pour la vidéo sans son...
T'as aucun appareil qui permet d'enregistrer le son ? Appareil photo, mobile ?

Sinon, bien pour l'arpège de Pink Floyd qui permet de se familiariser avec les arpèges aller-retour et le placement des doigts, et le barré il viendra à force de s’entraîner.
Tu as essayé le morceau de Tarrega ?

Et les autres ? Vous avez eu le temps de jouer un peu ? Vous vous en sortez ? C'est trop dur ou trop facile ?
guitare

_________________
J'me sens coupable d'avoir été dans une vie antérieure l'une de ces charmantes petites créatures que l'on rencontre au fond des bouteilles de mescal et d'en ressentir à tout jamais un sentiment mélancolique de paradis perdu.
- Thiefaine
avatar
Seby
Zikotonaute

Messages : 5447
Date d'inscription : 20/02/2013
Age : 41
Localisation : Système solaire

Voir le profil de l'utilisateur https://soundcloud.com/seby_la_mouche

Revenir en haut Aller en bas

Re: [Novices - Tuto 1] Finger Picking - Initiation aux arpèges

Message par cedric05 le Ven 14 Juin - 6:57

Ma guitare est une electro acoustique, il faudrait que je vois si il y a pas moyen de la brancher sur mon P.C, au pire ma femme a un appareil photo et un smartphone, faudrait que je vois avec elle.
Je m'occuperai de ça dans les jours a venir.
Sinon oui, j'ai essayé le morceau de Tarrega, c'est sympa a jouer.

cedric05
Novice à l'Ecole de Musique

Messages : 154
Date d'inscription : 04/03/2013

Voir le profil de l'utilisateur

Revenir en haut Aller en bas

Re: [Novices - Tuto 1] Finger Picking - Initiation aux arpèges

Message par Seby le Ven 14 Juin - 10:00

Pour brancher ta gratte sur le PC:

- il te faut normalement un Jack, un adaptateur pour le Jack - avec ça tu peux brancher ta guitare sur l'entrée Line de ta carte son,

- il te faut un programme pour enregistrer - Audacity est gratuit et marche bien,


- il faut mettre en ligne ce que tu as enregistré : SoundCloud est pas mal pour ça, nous sommes plusieurs à l'utiliser ici ( http://soundcloud.com/seby_la_mouche ).


Dernière édition par Seby le Ven 14 Juin - 11:46, édité 1 fois

_________________
J'me sens coupable d'avoir été dans une vie antérieure l'une de ces charmantes petites créatures que l'on rencontre au fond des bouteilles de mescal et d'en ressentir à tout jamais un sentiment mélancolique de paradis perdu.
- Thiefaine
avatar
Seby
Zikotonaute

Messages : 5447
Date d'inscription : 20/02/2013
Age : 41
Localisation : Système solaire

Voir le profil de l'utilisateur https://soundcloud.com/seby_la_mouche

Revenir en haut Aller en bas

Re: [Novices - Tuto 1] Finger Picking - Initiation aux arpèges

Message par Vexing le Ven 14 Juin - 11:22

Bonjour Séby, bonjour Cédric,
 
Bonjour les filles…
 
Oui, j’ai pris le temps de jouer et ça commence à aller en s’améliorant, bon c’est pas encore assez fluide à mon goût, mais Rome ne s’est pas faite en 1 jour
 
Et puis un peu comme Cédric, le barré c’est pendu mais je ne lâche pas !
 
Pour le morceau de Tarrega par contre, ce n’est pas pour moi vu mon niveau actuel.

Merci 
avatar
Vexing
Novice à l'Ecole de Musique

Messages : 39
Date d'inscription : 27/05/2013
Age : 48
Localisation : Belgique , ( A 2 pas de la France )

Voir le profil de l'utilisateur

Revenir en haut Aller en bas

Re: [Novices - Tuto 1] Finger Picking - Initiation aux arpèges

Message par Seby le Ven 14 Juin - 11:41

Ça viendra, les barrés, Cédric et Vexing !

Et oui, il y a une grosse différence de niveau entre les deux morceaux, mais je ne savais pas trop comment vous évaluer...

Vous voulez des exercices intermédiaires sur les arpèges ? Des morceaux plus abordables que Tarrega ?

_________________
J'me sens coupable d'avoir été dans une vie antérieure l'une de ces charmantes petites créatures que l'on rencontre au fond des bouteilles de mescal et d'en ressentir à tout jamais un sentiment mélancolique de paradis perdu.
- Thiefaine
avatar
Seby
Zikotonaute

Messages : 5447
Date d'inscription : 20/02/2013
Age : 41
Localisation : Système solaire

Voir le profil de l'utilisateur https://soundcloud.com/seby_la_mouche

Revenir en haut Aller en bas

Re: [Novices - Tuto 1] Finger Picking - Initiation aux arpèges

Message par cedric05 le Ven 14 Juin - 12:08

Salut Seby et Vexing
Merci pour l'info Seby, en fait il ne me manque plus que l'adaptateur pour la prise jack, faudrait que j'essaie de me dégoter ça Very Happy
Ouais le barré je désespère pas, disons qu'il sonne pas à chaque fois Razz
Sinon, si je peux me permettre, le premier arpège que j'ai appris a jouer c'est celui de  "everybody hurts" de R.E.M, il est assez accessible pour les débutants.

cedric05
Novice à l'Ecole de Musique

Messages : 154
Date d'inscription : 04/03/2013

Voir le profil de l'utilisateur

Revenir en haut Aller en bas

Re: [Novices - Tuto 1] Finger Picking - Initiation aux arpèges

Message par Vexing le Sam 15 Juin - 9:55

Les barrés c'est vraiment pas facile, en plus de ne pas sonner à chaque fois, ça me ralentit à chaque fois le temps de placer mes doigts au mieux, pas encore un automatisme pour ce genre d'accord chez moi. Mais non, je ne désespère pas...Very Happy

Merci Cédric pour l'idée du morceau de R.E.M...si tu as d'autres idées pour une méga super débutante, je suis preneuse...

Bon we
avatar
Vexing
Novice à l'Ecole de Musique

Messages : 39
Date d'inscription : 27/05/2013
Age : 48
Localisation : Belgique , ( A 2 pas de la France )

Voir le profil de l'utilisateur

Revenir en haut Aller en bas

Re: [Novices - Tuto 1] Finger Picking - Initiation aux arpèges

Message par cedric05 le Sam 15 Juin - 16:49

Salut Vexing, je suis content que ça t'aide (si tu veux je t'enverrai la partoche)
Perso, je vais sur des sites regroupant des tutos par niveau, mais avant de mettre les liens je voudrai avoir l'aval de Seby, vu que c'est notre tuteur et que je ne voudrai pas être irrespectueux envers lui Smile
Mais s'il est ok, je veux mettre les liens.

cedric05
Novice à l'Ecole de Musique

Messages : 154
Date d'inscription : 04/03/2013

Voir le profil de l'utilisateur

Revenir en haut Aller en bas

Re: [Novices - Tuto 1] Finger Picking - Initiation aux arpèges

Message par Seby le Sam 15 Juin - 18:53

Salut !
Oui, le morceau de REM est abordable (j'ai failli le mettre dans ce premier tuto, d'ailleurs !), et oui Cédric, si tu veux partager des sites ou autres mines d'infos, n'hésite pas !

_________________
J'me sens coupable d'avoir été dans une vie antérieure l'une de ces charmantes petites créatures que l'on rencontre au fond des bouteilles de mescal et d'en ressentir à tout jamais un sentiment mélancolique de paradis perdu.
- Thiefaine
avatar
Seby
Zikotonaute

Messages : 5447
Date d'inscription : 20/02/2013
Age : 41
Localisation : Système solaire

Voir le profil de l'utilisateur https://soundcloud.com/seby_la_mouche

Revenir en haut Aller en bas

Re: [Novices - Tuto 1] Finger Picking - Initiation aux arpèges

Message par cedric05 le Dim 16 Juin - 5:30

Salut Seby
Ce morceau est le premier que j'ai appris pour les arpèges, il est vraiment sympa.
Cool, si j'ai ton accord alors c'est tout bon, du reste des que je peux je poste un son ou une vidéo de mes performances (ma femme m'a proposé de me filmer) sur ce que tu nous as proposé.
Ok, voici pour les sites dits généralistes et de cours.
Le premier très complet et très (trop ?) détaillé.
http://www.tabs4acoustic.com/
Le deuxième beaucoup plus light
http://zamzamguitare.blogspot.ch/

Les sites avec des tutos dedans, classés par niveau
http://www.galagomusic.com/index.php/fr/cours-de-musique

Sur youtube
http://www.youtube.com/user/ipsaous/videos

Et enfin pour les partoches
http://www.guitarepourdebutant.fr/tablatures-faciles/niveau-1/
http://www.tablatureguitare.net/

Et tout ça est bien sur gratuit
J'espére que vous y trouverez votre bonheur

cedric05
Novice à l'Ecole de Musique

Messages : 154
Date d'inscription : 04/03/2013

Voir le profil de l'utilisateur

Revenir en haut Aller en bas

Re: [Novices - Tuto 1] Finger Picking - Initiation aux arpèges

Message par DarkGateLions le Mar 20 Aoû - 6:29

hoo tes tutos sont tres bien fait!tu dois avoir passé un temps fou la dessu!
avatar
DarkGateLions
Responsable du transport de fret de Zikotopia

Messages : 508
Date d'inscription : 30/07/2013
Age : 35
Localisation : Trois-Rivieres,québec,Canada

Voir le profil de l'utilisateur

Revenir en haut Aller en bas

Re: [Novices - Tuto 1] Finger Picking - Initiation aux arpèges

Message par Seby le Mar 20 Aoû - 10:00

Merci DGL, la deuxième partie est en court, j'espère la finaliser d'ici la rentrée !
Ça sera essentiellement d'autres morceaux "abordables" en arpèges.

_________________
J'me sens coupable d'avoir été dans une vie antérieure l'une de ces charmantes petites créatures que l'on rencontre au fond des bouteilles de mescal et d'en ressentir à tout jamais un sentiment mélancolique de paradis perdu.
- Thiefaine
avatar
Seby
Zikotonaute

Messages : 5447
Date d'inscription : 20/02/2013
Age : 41
Localisation : Système solaire

Voir le profil de l'utilisateur https://soundcloud.com/seby_la_mouche

Revenir en haut Aller en bas

Re: [Novices - Tuto 1] Finger Picking - Initiation aux arpèges

Message par Contenu sponsorisé


Contenu sponsorisé


Revenir en haut Aller en bas

Voir le sujet précédent Voir le sujet suivant Revenir en haut

- Sujets similaires

 
Permission de ce forum:
Vous ne pouvez pas répondre aux sujets dans ce forum